Etykiety

środa, 21 stycznia 2015

How to play Miejscy Partyzanci - Pidżama Porno bass line (tabs) / Jak zagrać Miejscy Partyzanci - Pidżama Porno na basie (tabulatury na bas)

Song: Miejscy Partyzanci
 
Artist: Pidżama Porno
 
E A D G

G||---------------|------------------------|---------------|----------------------|
D||---------------|------------------------|---------------|----------------------|
A||---------------|--4---6-4---------------|---------------|-----4---6-4----------|
E||--6------------|---------------4----4-5-|-----6---------|------------------4---|

G||-----------------|---------------------|------------------|---------------------|
D||-----------------|---------------------|------------------|---------------------|
A||-----------------|--------4---6-4------|------------------|-----------4---6-4---|
E||---4-5----6------|---------------------|--4----4-5----6---|---------------------|

G||-----------------|------------------|-----------------|------------------|
D||-----------------|------------------|-----------------|------------------|
A||-----------------|------4---6---7-8-|---7---6---4-----|------4---6---7-8-|
E||-----4----4-5----|--6---------------|---------------4-|--6---------------|

G||-----------------|------------------|-----------------|------------------|
D||---6---5---3-----|------------------|-----------------|------------------|
A||-----------------|------4---6---7-8-|---7---6---4-----|------4-----------|
E||---------------4-|--6---------------|---------------4-|--6-------6---1-1-|

G||--------------------|----------------|-----------------------|---------------|
D||--------------------|----------------|-----------------------|---------------|
A||--------------------|--------------4-|-----6-4---------------|---------------|
E||---1---1---1-4--5-6-|----------------|--------------4----4-5-|-----6---------|

G||-----------------------|------------------|----------------------|------------------|
D||-----------------------|------------------|----------------------|------------------|
A||-----4---6-4-----------|------------------|-------4---6-4--------|------------------|
E||------------------4----|---4-5----6-------|--------------------4-|------4-5----6----|

G||----------------------|--------------------|------------------|------------------|
D||----------------------|--------------------|------------------|------------------|
A||-----------4---6-4----|--------------------|------------------|------------------|
E||----------------------|-----4----4-5---1-1-|---1-1----------1-|---1-1-1----------|

G||-------------------|------------------|---------------||
D||-------------------|------------------|---------------||
A||-------------------|------------------|---------------||
E||---1-1-1-1---------|----1-1-1-1-------|---------------||

1 komentarz:

  1. Dobry kawałek Pidżama porno rules :)

    OdpowiedzUsuń

TOP 10 ALL TIME